Yeni Akor Ekle | Irtibat | Anasayfa
add favoriteSık Kullanılanlara Ekle
  • Sanatçı:
  • Barış Manço
  • Şarkı:
  • Gül Pembe ((( %100 doğru )))
  • Akor:
  • İntro Solo:
    E||--------------------||--------------------------|
    B||--------------------||----------0---0-----------|
    G||--------------------||*-----------2-------------|
    D||-------------3-2-0--||*--2---------------3-2-0--|
    A||--------------------||--------------------------|
    E||--------------------||--------------------------|
    
       
    -------------------------|-------------------------|
    -------------------------|-------------------------|
    ---------2-0-2-----------|---------0---0-----------|
    --2---------------3-2-0--|--2--------4------3-2-0--|
    -------------------------|-------------------------|
    -------------------------|-------------------------|
    
    
        
    --------------------||----------------2----5-2--7-||
    --------------------||-----0-----3-0----3---------||
    -------------------*||-------0-L------------------||
    --2-L----2---3-2-0-*||--2-------------------------||
    -------2------------||----------------------------||
    --------------------||----------------------------||
    
    
    
    
    Em          Am 
    Sen gülünce güller açar Gülpembe 
    G                      D         G   F  Dm Em 
    Bülbüller seni söyler, biz dinlerdik Gülpembe 
                Am 
    Sen gelince bahar gelir Gülpembe 
    G                    D      G   F  Dm Em 
    Dereler seni çaglar, sevinirdik Gülpembe 
    
      ( D                  G 
      ( Güz yagmurlariyla, birgün göçtün gittin 
      ( D                Em 
      ( Inanamadik Gülpembe 
    A ( D                   G 
      ( Bizim iller sessiz, bizim iller sensiz 
      ( D             Em 
      ( Olamadi Gülpembe 
    
              Am 
    Dudagimda son bir türkü Gülpembe 
    G                     D        G   F  Dm Em 
    Hala hep seni söyler, seni çagirir Gülpembe 
    
    TEKRAR A 
    
    Em        Am 
    Dudagimda son bir türkü Gülpembe 
    G                     D        G   F  Dm Em 
    Hala hep seni söyler, seni çagirir Gülpembe 
               Am 
    Gözlerimde son bir umut Gülpembe 
    G                   D       G   F  Dm Em 
    Hala hep seni arar, seni bekler Gülpembe
    
    
  • Görüntülenme:
  • 1401
  • Ekleyen:
  • Oğuzhan Yerdurmaz