Yeni Akor Ekle | Bize Ulaşın | Anasayfaya dön
  • Sanatçı:
  • Bulutsuzluk zlemi
  • Şarkı:
  • Szlerimi Geri Alamam Solo-Akor
  • Akor:
  • Giri
    
    E------0--1--3--/----3---5-3-1-0--/-------0--/--0--1-0-----/---------/---------
    B---------------/-----------------/--1--3----/--------3-1--/----0--1-/---1---1-
    G---------------/-----------------/----------/-------------/--2------/---------
    D---------------/-----------------/----------/-------------/---------/---------
    A---------------/-----------------/----------/-------------/---------/---------
    E---------------/-----------------/----------/-------------/---------/---------
    
    E---------------/----0---1-/
    B---0---1---3---/--3-------/
    G---------------/----------/
    D---------------/----------/
    A---------------/----------/
    E---------------/----------/
    
    
    Szlerimi Geri Alamam
    
    
    D	       A	   Bm		      F#m
    Szlerimi geri alamam , yazdm yeniden yazamam,
    G		 D	   Em		       A
    aldm batan alamam , bir daha geri dnemem,
    
    D		   A		Bm		     F#m
    Akyorsa gz yam kurumasn , oup seven gnlmse durmasn
    G		     G		  Em		      A
    Dost bildik anlarm armasn , bir daha geri dnemem.
    
    D			 A      
    Hibir kere hayat bayram olmad yada
    Bm		   F#m
    Her nefes almz bayramd.
    G		  D	   A			
    Bir umuttu yaatan insan , aldm elime sazm
    
    Gm	       C  
    Yine anca ayn suyu boyunu
    F	  Bb		F      Dm
    Belki yeniden karma kacaksn
    Gm	C	      F
    Gzgze durup baknca greceiz
    Bb	     Bb    Dm   C
    Neyiz ve nerelerdeyiz , bilemiyoruz imdi.
    
  • Görüntülenme:
  • 2435
  • Ekleyen:
  • Leonidas
Değerlendirmeniz:
1 5
3/5 (1 oy)