Yeni Akor Ekle | Bize Ulaşın | Anasayfaya dön
  • Sanatçı:
  • Kenan Doulu
  • Şarkı:
  • Bal Gibi
  • Akor:
  • E----------------0-------------------------  \
    B-----------0---------0-------------------    \
    G-------5------------------5--------------     \
    D--7----------------------------------------    /   x8 / x4
    A-----------------------------------------   /
    E------------------------------------------  / 
    
    Kimse sen gibi dokunmad
    Hi mi iin szlamad
    
    E 
    E-------------------0----------------------  \
    B--------------0---------0-----------------   \
    G--------5-------------------5-----------    \
    D---5----------------------------------------   /   x4
    A------------------------------------------  /
    E------------------------------------------- /
    
    yle iten sarlmad
    Ellerinle verdin ele
    
    E 
    E-------------------0----------------------  \
    B--------------0---------0-----------------   \
    G--------5--------------------5------------    \
    D----3---------------------------------------   /   x4
    A------------------------------------------  /
    E------------------------------------------- /
    
    pp pp teslim almad
    Ki bu eller baka ele dokunmad
    
                                              
    E----------2----------- \            E--------0-----0------
    B--------0---0---------  \           B------0---0--------
    G-----2---------2------   \          G----1-------1------
    D--1--------------------   / x2      D-2------------------
    A---------------------  /            A------------------
    E---------------------- /            E-------------------
    
    Bu   devredi                         niye
    Bu  sitem     dn                     diye
    
    
      Am               C    
      Gel de sen savun kolaysa kalbime           |
      G                   F
      Bu sebepsiz ayrlk nedendir ki            |
      Dm             Am
      Kimse sen gibi kimse ben gibi              |
      G      F         Dm (5.p)      Em (7.p)        
      Olamaz biliyoruz ikimiz de bal gibi        |
      Am               C    
      Gel de sen savun kolaysa kalbime           |    Nakarat
      G                   F
      Bu sebepsiz ayrlk nedendir ki            |
      Dm             Am              
      Kimse sen gibi kimse ben gibi              |
      G      F         Dm(5.p)        Em(7.p) 
      Olamaz biliyoruz ikimiz de bal gibi        |
      G     F         Dm(5.p)      Em(7.p)
      Hala seviyoruz ikimiz de bal gibi          |
    
    
    Tekrar  arpej
    
    Resmin ge dyor
    Her yerde sen sana ait eyler
    Sistemimden skp atamyorum
    Ama zlme yok bir ey
    
    Sevmezsin ok syleneni 
    Gzel ban artmak deil derdim
    nanma dostlara iyi deilim
    Sadece bilmi ol diye
    
    
    Nakarat x2
    
  • Görüntülenme:
  • 2559
  • Ekleyen:
  • Gktrk DOU
Değerlendirmeniz:
1 5
3/5 (2 oy)